Gitara chalishni o'rganamiz

by @uzfor
Gitara chalishni o'rganamiz

Ҳаммага салом. : )


Оразмизда гитаристлар бор бўлса ё гитара иҳлосмандлари бўлса гитара чалишни билганимизча улашиб олсак. Мен подкурсга қатнаябман, ўрганган нарсаларимни шу йерда ўрганишни ҳоҳловчилар учун тушунарли қилиб тушунчалар беришга ҳаракат қиламан. 


Демак гитарани ўйнатишдан олдин уни созлаб олиш керак, уни профессионал гитаристга созлатиб олинг ёки "GuitarTuna" дастурини Магазиндан (АппСторе, ГуглПлей, Виндовс Маркет ва ҳ. к. лардан) юклаб олинг, ва шу дастурни кўрсатмалари орқали гитарани созлаб олинг. 


Дастурда сиз қайси торни чалсангиз унинг ҳозирги позициясини кўрсатади. 

Агар + (плюс)ни кўрсаца торни бўшатасиз, агар - (минус) ни кўрсаца торни таранглатасиз. 

Агар ҳаммаси жойида бўлса билдиришнома беради. 



барча торларни шу тартибда созлаб оламиз. 


WebSite: http://yousician.com/

iPhone: https://itunes.apple.com/us/app/guitartuna-guitar-bass-tuner/id527588389?mt=8

Android: https://play.google.com/store/apps/details?id=com.ovelin.guitartuna&hl=ru


агар орамизда бу босқичлардан ўтанлар бўлса "Каподастр билан ва каподастрсиз чалинган аккордлар мослиги"ни кўриб чиқишимиз мумкин. 


Балким аккордларни ўрганармиз, мен мусиқа мактабда ўқимаганим учун ноталарга тушунишим сал қийин бўлди, лекин мен каби "чойнак"лик пайтида "табулатура" орқали чалишни ўргангани осон экан. 


У ҳудди шундай бўлади: 

Э: 0, 0, 5, 3, 1. . . . . . . . . 


Бу "операция ы" филмидаги "постой паровоз не стучите колеса" қўшиғининг бошланиши. Жуда оддий, жуда осон, агар қизиқиш билан ишласангиз дарров ўрганиб оласиз. 


Масалан шу "постой паровоз" қўшиғига жуда қизиқдим ва таблутура орқали бир кунда ўргандим)


Хўш гитаристлар бўлса, қайси дарсни бошлаймиз?

2 daqiqa 58 soniyadan keyin yozdi:

1. Торлар ва пардалар

Гитара одатда олти торли бўлади. Бироқ тўрт, йетти, ўн ва ўн икки торли гитаралар ҳам мавжуд. Ушбу мавзуда фақат олти торли гитара ҳақида сўз юритилади. Гитара торлари пўлат ёки нейлондан тайёрланади. Гитара торларининг энг ингичкасини 1-, энг йўғонини 6-тор деб олиш мумкин. 


Гитара дастасидаги бўғинлар пардалар деб аталади. Кўп ҳолларда гитара қулоқларига энг яқин парда 1-парда деб олинади. Стандарт классик гитараларда одатда 19 та, электрогитараларда 21-24 та парда бўлади. Аммо 27 пардали гитаралар ҳам мавжуд.


2. Пардаларда товушларнинг жойлашиши (pardalarda_tovushlarning_joylashishi.jpg)


Гитарачилар орасида нота ва аккордларнинг лотинча номларидан фойдаланиш кенг тарқалган. Ўзбек тилига ноталарнинг номланиши рус тилидан кириб келган. Ўзбекча ва лотинча ноталарнинг мутаносиблиги қуйидагичадир: 


Do — C

Re — D

Mi — E

Fa — F

Sol — G

Lya — A

Si — H/B


Қуйидаги жадвалда стандарт созланган гитара пардаларида ноталарнинг жойлашуви берилган. Торни очиқ чалиш 0 билан белгиланган. (б — бемол, # — дийез. )

9 daqiqa 17 soniyadan keyin yozdi:

Гитара қисмлари (acoustic_guitar.png)

Қуйида акустик гитара қисмлари билан танишишингиз мумкин. Қисмларнинг аталишини эслаб қолишга ҳаракат қилинг. Бу кейинги саҳифалардаги материалларни ўзлаштиришингизни осонлаштиради.

14 daqiqa 19 soniyadan keyin yozdi:

Yana ma'lumotlar kerak bo'lsa tanishtirib o'taman, hozir esa darsni boshlasak:


Quyida Lola Yo‘ldoshevaning „Muhabbatim“ qo‘shig‘ida chalingan sodda soloning tabulaturasi keltirilgan. Uni chalishdan avval qo‘shiqni eshitib, undagi sologa e’tibor bering. Istasangiz ashulaning songsterr.com saytiga yuklangan onlayn tabulaturasini ochib qarang. So‘ngra tabulaturaga qarab ohangni chalib ko‘ring. Quyida L belgisi (inglizcha long so‘zidan olingan) notani uzunroq chalish kerakligini anglatadi.


|----------------------------|-------|----------------------------|-------|

|-----------8-----8----------|-------|-----------6-----6----------|-------|

|--5-----5--------------5L---|--5----|--3-----3--------------3L---|--3----|

|----------------------------|-------|----------------------------|-------|

|----------------------------|-------|----------------------------|-------|

|----------------------------|-------|----------------------------|-------|


|----------------------------|----------------------------|

|-----------8-----8----------|--------------8--6--4--6----|

|--5-----5--------------5L---|--5--------5----------------|

|----------------------------|----------------------------|

|----------------------------|----------------------------|

|----------------------------|----------------------------|


|----------------------------|----------------------------|

|-----------6-----6----------|--------------6--4--3--4----|

|--3-----3--------------3L---|--3--------3----------------|

|----------------------------|----------------------------|

|----------------------------|----------------------------|

|----------------------------|----------------------------|


|----------------------------|----------------------------|

|-----------8-----8----------|--------------8--6--4--6----|

|--5-----5--------------5L---|--5--------5----------------|

|----------------------------|----------------------------|

|----------------------------|----------------------------|

|----------------------------|----------------------------|


|----------------------------|----------------------------|-------|

|-----------6-----6----------|--------------3--4--3-------|-------|

|--3-----3--------------3L---|--3--------3----------------|--5----|

|----------------------------|----------------------------|-------|

|----------------------------|----------------------------|-------|

|----------------------------|----------------------------|-------|

November 15, 2018
by @uzfor